ISO-10303-21;
HEADER;
FILE_DESCRIPTION (( 'STEP AP203' ),
    '1' );
FILE_NAME ('MHWP-25.4-650.STEP',
    '2020-12-22T09:26:47',
    ( '' ),
    ( '' ),
    'SwSTEP 2.0',
    'SolidWorks 2020',
    '' );
FILE_SCHEMA (( 'CONFIG_CONTROL_DESIGN' ));
ENDSEC;

DATA;
#1 = APPROVAL ( #12, 'UNSPECIFIED' ) ;
#2 = DIRECTION ( 'NONE',  ( -0.000000000000000000, 0.000000000000000000, 1.000000000000000000 ) ) ;
#3 = DIRECTION ( 'NONE',  ( -1.000000000000000000, -0.000000000000000000, -0.000000000000000000 ) ) ;
#4 = AXIS2_PLACEMENT_3D ( 'NONE', #79, #82, #124 ) ;
#5 = DATE_AND_TIME ( #129, #75 ) ;
#6 = CALENDAR_DATE ( 2020, 22, 12 ) ;
#7 =( NAMED_UNIT ( * ) SI_UNIT ( $, .STERADIAN. ) SOLID_ANGLE_UNIT ( ) );
#8 = APPROVAL_STATUS ( 'not_yet_approved' ) ;
#9 = EDGE_CURVE ( 'NONE', #38, #11, #56, .T. ) ;
#10 = DATE_TIME_ROLE ( 'classification_date' ) ;
#11 = VERTEX_POINT ( 'NONE', #152 ) ;
#12 = APPROVAL_STATUS ( 'not_yet_approved' ) ;
#13 = EDGE_CURVE ( 'NONE', #162, #23, #93, .T. ) ;
#14 = ORIENTED_EDGE ( 'NONE', *, *, #66, .F. ) ;
#15 = AXIS2_PLACEMENT_3D ( 'NONE', #151, #25, #17 ) ;
#16 = LOCAL_TIME ( 17, 26, 47.00000000000000000, #60 ) ;
#17 = DIRECTION ( 'NONE',  ( 0.000000000000000000, 0.000000000000000000, 1.000000000000000000 ) ) ;
#18 = CARTESIAN_POINT ( 'NONE',  ( 1.999999999999999112, 12.69999999999999929, 0.000000000000000000 ) ) ;
#19 = ORIENTED_EDGE ( 'NONE', *, *, #95, .T. ) ;
#20 = DIRECTION ( 'NONE',  ( 0.000000000000000000, 0.000000000000000000, 1.000000000000000000 ) ) ;
#21 = DATE_AND_TIME ( #6, #157 ) ;
#22 = SECURITY_CLASSIFICATION ( '', '', #146 ) ;
#23 = VERTEX_POINT ( 'NONE', #106 ) ;
#24 = CC_DESIGN_SECURITY_CLASSIFICATION ( #22, ( #131 ) ) ;
#25 = DIRECTION ( 'NONE',  ( -1.000000000000000000, -0.000000000000000000, -0.000000000000000000 ) ) ;
#26 = CARTESIAN_POINT ( 'NONE',  ( 1.999999999999998224, 0.000000000000000000, 0.000000000000000000 ) ) ;
#27 = FACE_OUTER_BOUND ( 'NONE', #64, .T. ) ;
#28 = ORIENTED_EDGE ( 'NONE', *, *, #9, .F. ) ;
#29 = CARTESIAN_POINT ( 'NONE',  ( 0.000000000000000000, 0.000000000000000000, 0.000000000000000000 ) ) ;
#30 = CC_DESIGN_APPROVAL ( #85, ( #22 ) ) ;
#31 = PERSON_AND_ORGANIZATION_ROLE ( 'creator' ) ;
#32 = PERSON_AND_ORGANIZATION ( #148, #114 ) ;
#33 = CIRCLE ( 'NONE', #138, 12.69999999999999929 ) ;
#34 = DATE_AND_TIME ( #73, #92 ) ;
#35 = PRODUCT_DEFINITION ( 'UNKNOWN', '', #131, #50 ) ;
#36 = MECHANICAL_CONTEXT ( 'NONE', #111, 'mechanical' ) ;
#37 = EDGE_LOOP ( 'NONE', ( #121, #19, #103, #51 ) ) ;
#38 = VERTEX_POINT ( 'NONE', #54 ) ;
#39 = CC_DESIGN_DATE_AND_TIME_ASSIGNMENT ( #34, #10, ( #22 ) ) ;
#40 = CARTESIAN_POINT ( 'NONE',  ( -5.939536975864662969E-16, 12.69999999999999929, 0.000000000000000000 ) ) ;
#41 = ADVANCED_BREP_SHAPE_REPRESENTATION ( 'MHWP-25.4-650', ( #115, #172 ), #88 ) ;
#42 = CARTESIAN_POINT ( 'NONE',  ( 0.000000000000000000, 1.555301434917138433E-15, -12.69999999999999929 ) ) ;
#43 = ADVANCED_FACE ( 'NONE', ( #27 ), #68, .F. ) ;
#44 = AXIS2_PLACEMENT_3D ( 'NONE', #144, #128, #20 ) ;
#45 = CC_DESIGN_PERSON_AND_ORGANIZATION_ASSIGNMENT ( #46, #31, ( #35 ) ) ;
#46 = PERSON_AND_ORGANIZATION ( #148, #114 ) ;
#47 = APPROVAL_ROLE ( '' ) ;
#48 = PERSON_AND_ORGANIZATION ( #148, #114 ) ;
#49 = ADVANCED_FACE ( 'NONE', ( #91 ), #65, .T. ) ;
#50 = DESIGN_CONTEXT ( 'detailed design', #174, 'design' ) ;
#51 = ORIENTED_EDGE ( 'NONE', *, *, #83, .F. ) ;
#52 = LINE ( 'NONE', #69, #132 ) ;
#53 = CARTESIAN_POINT ( 'NONE',  ( 1.999999999999998224, 0.000000000000000000, 0.000000000000000000 ) ) ;
#54 = CARTESIAN_POINT ( 'NONE',  ( 1.999999999999998224, 0.000000000000000000, 12.69999999999999929 ) ) ;
#55 = DIRECTION ( 'NONE',  ( -1.000000000000000000, -0.000000000000000000, -0.000000000000000000 ) ) ;
#56 = CIRCLE ( 'NONE', #139, 12.69999999999999929 ) ;
#57 = FACE_OUTER_BOUND ( 'NONE', #160, .T. ) ;
#58 = COORDINATED_UNIVERSAL_TIME_OFFSET ( 8, 0, .AHEAD. ) ;
#59 = LOCAL_TIME ( 17, 26, 47.00000000000000000, #171 ) ;
#60 = COORDINATED_UNIVERSAL_TIME_OFFSET ( 8, 0, .AHEAD. ) ;
#61 = CALENDAR_DATE ( 2020, 22, 12 ) ;
#62 = ADVANCED_FACE ( 'NONE', ( #84 ), #122, .T. ) ;
#63 = APPROVAL_ROLE ( '' ) ;
#64 = EDGE_LOOP ( 'NONE', ( #28, #142 ) ) ;
#65 = CYLINDRICAL_SURFACE ( 'NONE', #143, 12.69999999999999929 ) ;
#66 = EDGE_CURVE ( 'NONE', #38, #162, #52, .T. ) ;
#67 = DIRECTION ( 'NONE',  ( -1.000000000000000000, -0.000000000000000000, -0.000000000000000000 ) ) ;
#68 = PLANE ( 'NONE',  #119 ) ;
#69 = CARTESIAN_POINT ( 'NONE',  ( 0.000000000000000000, 0.000000000000000000, 12.69999999999999929 ) ) ;
#70 = DIRECTION ( 'NONE',  ( 0.000000000000000000, 0.000000000000000000, 1.000000000000000000 ) ) ;
#71 = PERSON_AND_ORGANIZATION_ROLE ( 'design_supplier' ) ;
#72 = DATE_TIME_ROLE ( 'creation_date' ) ;
#73 = CALENDAR_DATE ( 2020, 22, 12 ) ;
#74 = ADVANCED_FACE ( 'NONE', ( #57 ), #123, .F. ) ;
#75 = LOCAL_TIME ( 17, 26, 47.00000000000000000, #163 ) ;
#76 = APPLICATION_PROTOCOL_DEFINITION ( 'international standard', 'config_control_design', 1994, #174 ) ;
#77 = PRODUCT ( 'MHWP-25.4-650', 'MHWP-25.4-650', '', ( #36 ) ) ;
#78 = EDGE_CURVE ( 'NONE', #11, #23, #140, .T. ) ;
#79 = CARTESIAN_POINT ( 'NONE',  ( -1.187907395172932594E-15, 0.000000000000000000, 0.000000000000000000 ) ) ;
#80 = DIRECTION ( 'NONE',  ( -1.000000000000000000, 0.000000000000000000, -0.000000000000000000 ) ) ;
#81 = CC_DESIGN_APPROVAL ( #1, ( #35 ) ) ;
#82 = DIRECTION ( 'NONE',  ( -1.000000000000000000, -0.000000000000000000, -0.000000000000000000 ) ) ;
#83 = EDGE_CURVE ( 'NONE', #23, #162, #145, .T. ) ;
#84 = FACE_OUTER_BOUND ( 'NONE', #147, .T. ) ;
#85 = APPROVAL ( #166, 'UNSPECIFIED' ) ;
#86 = CC_DESIGN_DATE_AND_TIME_ASSIGNMENT ( #101, #72, ( #35 ) ) ;
#87 = PERSON_AND_ORGANIZATION ( #148, #114 ) ;
#88 =( GEOMETRIC_REPRESENTATION_CONTEXT ( 3 ) GLOBAL_UNCERTAINTY_ASSIGNED_CONTEXT ( ( #133 ) ) GLOBAL_UNIT_ASSIGNED_CONTEXT ( ( #165, #112, #7 ) ) REPRESENTATION_CONTEXT ( 'NONE', 'WORKASPACE' ) );
#89 = VECTOR ( 'NONE', #104, 1000.000000000000000 ) ;
#90 = DIRECTION ( 'NONE',  ( 0.000000000000000000, 0.000000000000000000, -1.000000000000000000 ) ) ;
#91 = FACE_OUTER_BOUND ( 'NONE', #37, .T. ) ;
#92 = LOCAL_TIME ( 17, 26, 47.00000000000000000, #58 ) ;
#93 = CIRCLE ( 'NONE', #4, 12.69999999999999929 ) ;
#94 = DIRECTION ( 'NONE',  ( 0.000000000000000000, 0.000000000000000000, 1.000000000000000000 ) ) ;
#95 = EDGE_CURVE ( 'NONE', #11, #38, #33, .T. ) ;
#96 = DIRECTION ( 'NONE',  ( 1.000000000000000000, 0.000000000000000000, 0.000000000000000000 ) ) ;
#97 = APPROVAL_DATE_TIME ( #21, #85 ) ;
#98 = APPLICATION_PROTOCOL_DEFINITION ( 'international standard', 'config_control_design', 1994, #111 ) ;
#99 = PRODUCT_DEFINITION_SHAPE ( 'NONE', 'NONE',  #35 ) ;
#100 = PERSON_AND_ORGANIZATION ( #148, #114 ) ;
#101 = DATE_AND_TIME ( #158, #59 ) ;
#102 = ORIENTED_EDGE ( 'NONE', *, *, #13, .F. ) ;
#103 = ORIENTED_EDGE ( 'NONE', *, *, #66, .T. ) ;
#104 = DIRECTION ( 'NONE',  ( -1.000000000000000000, -0.000000000000000000, -0.000000000000000000 ) ) ;
#105 = DIRECTION ( 'NONE',  ( -1.000000000000000000, -0.000000000000000000, -0.000000000000000000 ) ) ;
#106 = CARTESIAN_POINT ( 'NONE',  ( -1.187907395172932594E-15, 1.555301434917138433E-15, -12.69999999999999929 ) ) ;
#107 = CLOSED_SHELL ( 'NONE', ( #62, #49, #43, #74 ) ) ;
#108 = APPROVAL_PERSON_ORGANIZATION ( #87, #85, #113 ) ;
#109 = ORIENTED_EDGE ( 'NONE', *, *, #83, .T. ) ;
#110 = CARTESIAN_POINT ( 'NONE',  ( 0.000000000000000000, 0.000000000000000000, 0.000000000000000000 ) ) ;
#111 = APPLICATION_CONTEXT ( 'configuration controlled 3d designs of mechanical parts and assemblies' ) ;
#112 =( NAMED_UNIT ( * ) PLANE_ANGLE_UNIT ( ) SI_UNIT ( $, .RADIAN. ) );
#113 = APPROVAL_ROLE ( '' ) ;
#114 = ORGANIZATION ( 'UNSPECIFIED', 'UNSPECIFIED', '' ) ;
#115 = MANIFOLD_SOLID_BREP ( 'Ðý×', #107 ) ;
#116 = PERSON_AND_ORGANIZATION_ROLE ( 'classification_officer' ) ;
#117 = CC_DESIGN_PERSON_AND_ORGANIZATION_ASSIGNMENT ( #48, #116, ( #22 ) ) ;
#118 = APPROVAL_DATE_TIME ( #134, #167 ) ;
#119 = AXIS2_PLACEMENT_3D ( 'NONE', #18, #80, #2 ) ;
#120 = CC_DESIGN_PERSON_AND_ORGANIZATION_ASSIGNMENT ( #149, #156, ( #77 ) ) ;
#121 = ORIENTED_EDGE ( 'NONE', *, *, #78, .F. ) ;
#122 = CYLINDRICAL_SURFACE ( 'NONE', #44, 12.69999999999999929 ) ;
#123 = PLANE ( 'NONE',  #173 ) ;
#124 = DIRECTION ( 'NONE',  ( 0.000000000000000000, 0.000000000000000000, 1.000000000000000000 ) ) ;
#125 = CC_DESIGN_PERSON_AND_ORGANIZATION_ASSIGNMENT ( #32, #71, ( #131 ) ) ;
#126 = ORIENTED_EDGE ( 'NONE', *, *, #9, .T. ) ;
#127 = PRODUCT_RELATED_PRODUCT_CATEGORY ( 'detail', '', ( #77 ) ) ;
#128 = DIRECTION ( 'NONE',  ( -1.000000000000000000, -0.000000000000000000, -0.000000000000000000 ) ) ;
#129 = CALENDAR_DATE ( 2020, 22, 12 ) ;
#130 = COORDINATED_UNIVERSAL_TIME_OFFSET ( 8, 0, .AHEAD. ) ;
#131 = PRODUCT_DEFINITION_FORMATION_WITH_SPECIFIED_SOURCE ( 'ANY', '', #77, .NOT_KNOWN. ) ;
#132 = VECTOR ( 'NONE', #3, 1000.000000000000000 ) ;
#133 = UNCERTAINTY_MEASURE_WITH_UNIT (LENGTH_MEASURE( 1.000000000000000082E-05 ), #165, 'distance_accuracy_value', 'NONE');
#134 = DATE_AND_TIME ( #61, #16 ) ;
#135 = ORIENTED_EDGE ( 'NONE', *, *, #13, .T. ) ;
#136 = PERSON_AND_ORGANIZATION ( #148, #114 ) ;
#137 = PERSON_AND_ORGANIZATION ( #148, #114 ) ;
#138 = AXIS2_PLACEMENT_3D ( 'NONE', #53, #105, #161 ) ;
#139 = AXIS2_PLACEMENT_3D ( 'NONE', #26, #67, #94 ) ;
#140 = LINE ( 'NONE', #42, #89 ) ;
#141 = DIRECTION ( 'NONE',  ( 0.000000000000000000, 0.000000000000000000, 1.000000000000000000 ) ) ;
#142 = ORIENTED_EDGE ( 'NONE', *, *, #95, .F. ) ;
#143 = AXIS2_PLACEMENT_3D ( 'NONE', #29, #55, #141 ) ;
#144 = CARTESIAN_POINT ( 'NONE',  ( 0.000000000000000000, 0.000000000000000000, 0.000000000000000000 ) ) ;
#145 = CIRCLE ( 'NONE', #15, 12.69999999999999929 ) ;
#146 = SECURITY_CLASSIFICATION_LEVEL ( 'unclassified' ) ;
#147 = EDGE_LOOP ( 'NONE', ( #126, #159, #102, #14 ) ) ;
#148 = PERSON ( 'UNSPECIFIED', 'UNSPECIFIED', 'UNSPECIFIED', ('UNSPECIFIED'), ('UNSPECIFIED'), ('UNSPECIFIED') ) ;
#149 = PERSON_AND_ORGANIZATION ( #148, #114 ) ;
#150 = APPROVAL_PERSON_ORGANIZATION ( #137, #1, #63 ) ;
#151 = CARTESIAN_POINT ( 'NONE',  ( -1.187907395172932594E-15, 0.000000000000000000, 0.000000000000000000 ) ) ;
#152 = CARTESIAN_POINT ( 'NONE',  ( 1.999999999999998224, 1.555301434917138433E-15, -12.69999999999999929 ) ) ;
#153 = APPROVAL_PERSON_ORGANIZATION ( #100, #167, #47 ) ;
#154 = CARTESIAN_POINT ( 'NONE',  ( -1.187907395172932594E-15, 0.000000000000000000, 12.69999999999999929 ) ) ;
#155 = CC_DESIGN_PERSON_AND_ORGANIZATION_ASSIGNMENT ( #136, #168, ( #131 ) ) ;
#156 = PERSON_AND_ORGANIZATION_ROLE ( 'design_owner' ) ;
#157 = LOCAL_TIME ( 17, 26, 47.00000000000000000, #130 ) ;
#158 = CALENDAR_DATE ( 2020, 22, 12 ) ;
#159 = ORIENTED_EDGE ( 'NONE', *, *, #78, .T. ) ;
#160 = EDGE_LOOP ( 'NONE', ( #135, #109 ) ) ;
#161 = DIRECTION ( 'NONE',  ( 0.000000000000000000, 0.000000000000000000, 1.000000000000000000 ) ) ;
#162 = VERTEX_POINT ( 'NONE', #154 ) ;
#163 = COORDINATED_UNIVERSAL_TIME_OFFSET ( 8, 0, .AHEAD. ) ;
#164 = APPROVAL_DATE_TIME ( #5, #1 ) ;
#165 =( LENGTH_UNIT ( ) NAMED_UNIT ( * ) SI_UNIT ( .MILLI., .METRE. ) );
#166 = APPROVAL_STATUS ( 'not_yet_approved' ) ;
#167 = APPROVAL ( #8, 'UNSPECIFIED' ) ;
#168 = PERSON_AND_ORGANIZATION_ROLE ( 'creator' ) ;
#169 = SHAPE_DEFINITION_REPRESENTATION ( #99, #41 ) ;
#170 = CC_DESIGN_APPROVAL ( #167, ( #131 ) ) ;
#171 = COORDINATED_UNIVERSAL_TIME_OFFSET ( 8, 0, .AHEAD. ) ;
#172 = AXIS2_PLACEMENT_3D ( 'NONE', #110, #70, #96 ) ;
#173 = AXIS2_PLACEMENT_3D ( 'NONE', #40, #175, #90 ) ;
#174 = APPLICATION_CONTEXT ( 'configuration controlled 3d designs of mechanical parts and assemblies' ) ;
#175 = DIRECTION ( 'NONE',  ( 1.000000000000000000, 0.000000000000000000, 0.000000000000000000 ) ) ;
ENDSEC;
END-ISO-10303-21;
